ISO-10303-21;
HEADER;
FILE_DESCRIPTION(('STEP AP214'),'1');
FILE_NAME('cctmp_F0AEAB44-1621-45DA-9C2E-6D7BC5699866_2020_6_9_13_5_22_574..stp','2020-06-09T11:05:22',('Georg Fischer Piping Systems Ltd.'),('CADClick - www.CADClick.com'),'Spatial InterOp 3D',' ','unknown authorization');
FILE_SCHEMA(('AUTOMOTIVE_DESIGN'));
ENDSEC;
DATA;
#1=MECHANICAL_DESIGN_GEOMETRIC_PRESENTATION_REPRESENTATION(' ',(#10,#11,#12,#13,#14,#15,#16,#17,#18,#19,#20,#21,#22,#23,#24),#6);
#2=PRODUCT_DEFINITION_CONTEXT('',#25,'design');
#3=APPLICATION_PROTOCOL_DEFINITION('INTERNATIONAL STANDARD','automotive_design',1994,#25);
#4=PRODUCT_CATEGORY_RELATIONSHIP('NONE','NONE',#26,#27);
#5=SHAPE_DEFINITION_REPRESENTATION(#28,#29);
#6= (GEOMETRIC_REPRESENTATION_CONTEXT(3)GLOBAL_UNCERTAINTY_ASSIGNED_CONTEXT((#32))GLOBAL_UNIT_ASSIGNED_CONTEXT((#34,#35,#36))REPRESENTATION_CONTEXT('NONE','WORKSPACE'));
#10=STYLED_ITEM('',(#38),#39);
#11=STYLED_ITEM('',(#40),#41);
#12=STYLED_ITEM('',(#42),#43);
#13=STYLED_ITEM('',(#44),#45);
#14=STYLED_ITEM('',(#46),#47);
#15=STYLED_ITEM('',(#48),#49);
#16=STYLED_ITEM('',(#50),#51);
#17=STYLED_ITEM('',(#52),#53);
#18=STYLED_ITEM('',(#54),#55);
#19=STYLED_ITEM('',(#56),#57);
#20=STYLED_ITEM('',(#58),#59);
#21=STYLED_ITEM('',(#60),#61);
#22=STYLED_ITEM('',(#62),#63);
#23=STYLED_ITEM('',(#64),#65);
#24=STYLED_ITEM('',(#66),#67);
#25=APPLICATION_CONTEXT(' ');
#26=PRODUCT_CATEGORY('part','NONE');
#27=PRODUCT_RELATED_PRODUCT_CATEGORY('detail',' ',(#68));
#28=PRODUCT_DEFINITION_SHAPE('NONE','NONE',#69);
#29=ADVANCED_BREP_SHAPE_REPRESENTATION('753061015',(#67,#70),#6);
#32=UNCERTAINTY_MEASURE_WITH_UNIT(LENGTH_MEASURE(1.0E-006),#34,'','');
#34= (CONVERSION_BASED_UNIT('MILLIMETRE',#73)LENGTH_UNIT()NAMED_UNIT(#76));
#35= (NAMED_UNIT(#78)PLANE_ANGLE_UNIT()SI_UNIT($,.RADIAN.));
#36= (NAMED_UNIT(#78)SOLID_ANGLE_UNIT()SI_UNIT($,.STERADIAN.));
#38=PRESENTATION_STYLE_ASSIGNMENT((#84));
#39=ADVANCED_FACE('',(#85),#86,.F.);
#40=PRESENTATION_STYLE_ASSIGNMENT((#87));
#41=ADVANCED_FACE('',(#88),#89,.T.);
#42=PRESENTATION_STYLE_ASSIGNMENT((#90));
#43=ADVANCED_FACE('',(#91),#92,.T.);
#44=PRESENTATION_STYLE_ASSIGNMENT((#93));
#45=ADVANCED_FACE('',(#94),#95,.T.);
#46=PRESENTATION_STYLE_ASSIGNMENT((#96));
#47=ADVANCED_FACE('',(#97),#98,.F.);
#48=PRESENTATION_STYLE_ASSIGNMENT((#99));
#49=ADVANCED_FACE('',(#100),#101,.F.);
#50=PRESENTATION_STYLE_ASSIGNMENT((#102));
#51=ADVANCED_FACE('',(#103),#104,.F.);
#52=PRESENTATION_STYLE_ASSIGNMENT((#105));
#53=ADVANCED_FACE('',(#106),#107,.F.);
#54=PRESENTATION_STYLE_ASSIGNMENT((#108));
#55=ADVANCED_FACE('',(#109),#110,.T.);
#56=PRESENTATION_STYLE_ASSIGNMENT((#111));
#57=ADVANCED_FACE('',(#112,#113),#114,.T.);
#58=PRESENTATION_STYLE_ASSIGNMENT((#115));
#59=ADVANCED_FACE('',(#116),#117,.T.);
#60=PRESENTATION_STYLE_ASSIGNMENT((#118));
#61=ADVANCED_FACE('',(#119,#120),#121,.T.);
#62=PRESENTATION_STYLE_ASSIGNMENT((#122));
#63=ADVANCED_FACE('',(#123),#124,.T.);
#64=PRESENTATION_STYLE_ASSIGNMENT((#125));
#65=ADVANCED_FACE('',(#126),#127,.F.);
#66=PRESENTATION_STYLE_ASSIGNMENT((#128));
#67=MANIFOLD_SOLID_BREP('753061015',#129);
#68=PRODUCT('753061015','','PART--DESC',(#130));
#69=PRODUCT_DEFINITION('','NONE',#131,#2);
#70=AXIS2_PLACEMENT_3D('',#132,#133,#134);
#73=LENGTH_MEASURE_WITH_UNIT(LENGTH_MEASURE(1.0),#135);
#76=DIMENSIONAL_EXPONENTS(1.0,0.0,0.0,0.0,0.0,0.0,0.0);
#78=DIMENSIONAL_EXPONENTS(0.0,0.0,0.0,0.0,0.0,0.0,0.0);
#84=SURFACE_STYLE_USAGE(.BOTH.,#136);
#85=FACE_OUTER_BOUND('',#137,.T.);
#86=TOROIDAL_SURFACE('',#138,188.0,51.1);
#87=SURFACE_STYLE_USAGE(.BOTH.,#139);
#88=FACE_OUTER_BOUND('',#140,.T.);
#89=TOROIDAL_SURFACE('',#141,188.0,62.5);
#90=SURFACE_STYLE_USAGE(.BOTH.,#142);
#91=FACE_OUTER_BOUND('',#143,.T.);
#92=CYLINDRICAL_SURFACE('',#144,62.5);
#93=SURFACE_STYLE_USAGE(.BOTH.,#145);
#94=FACE_OUTER_BOUND('',#146,.T.);
#95=CYLINDRICAL_SURFACE('',#147,62.5);
#96=SURFACE_STYLE_USAGE(.BOTH.,#148);
#97=FACE_OUTER_BOUND('',#149,.T.);
#98=CYLINDRICAL_SURFACE('',#150,51.1);
#99=SURFACE_STYLE_USAGE(.BOTH.,#151);
#100=FACE_OUTER_BOUND('',#152,.T.);
#101=CYLINDRICAL_SURFACE('',#153,51.1);
#102=SURFACE_STYLE_USAGE(.BOTH.,#154);
#103=FACE_OUTER_BOUND('',#155,.T.);
#104=CYLINDRICAL_SURFACE('',#156,51.1);
#105=SURFACE_STYLE_USAGE(.BOTH.,#157);
#106=FACE_OUTER_BOUND('',#158,.T.);
#107=CYLINDRICAL_SURFACE('',#159,51.1);
#108=SURFACE_STYLE_USAGE(.BOTH.,#160);
#109=FACE_OUTER_BOUND('',#161,.T.);
#110=TOROIDAL_SURFACE('',#162,188.0,62.5);
#111=SURFACE_STYLE_USAGE(.BOTH.,#163);
#112=FACE_BOUND('',#164,.T.);
#113=FACE_OUTER_BOUND('',#165,.T.);
#114=PLANE('',#166);
#115=SURFACE_STYLE_USAGE(.BOTH.,#167);
#116=FACE_OUTER_BOUND('',#168,.T.);
#117=CYLINDRICAL_SURFACE('',#169,62.5);
#118=SURFACE_STYLE_USAGE(.BOTH.,#170);
#119=FACE_BOUND('',#171,.T.);
#120=FACE_OUTER_BOUND('',#172,.T.);
#121=PLANE('',#173);
#122=SURFACE_STYLE_USAGE(.BOTH.,#174);
#123=FACE_OUTER_BOUND('',#175,.T.);
#124=CYLINDRICAL_SURFACE('',#176,62.5);
#125=SURFACE_STYLE_USAGE(.BOTH.,#177);
#126=FACE_OUTER_BOUND('',#178,.T.);
#127=TOROIDAL_SURFACE('',#179,188.0,51.1);
#128=SURFACE_STYLE_USAGE(.BOTH.,#180);
#129=CLOSED_SHELL('',(#39,#41,#43,#45,#47,#49,#51,#53,#55,#57,#59,#61,#63,#65));
#130=PRODUCT_CONTEXT('',#25,'mechanical');
#131=PRODUCT_DEFINITION_FORMATION_WITH_SPECIFIED_SOURCE(' ','NONE',#68,.NOT_KNOWN.);
#132=CARTESIAN_POINT('',(0.0,0.0,0.0));
#133=DIRECTION('',(0.0,0.0,1.0));
#134=DIRECTION('',(1.0,0.0,0.0));
#135= (NAMED_UNIT(#76)LENGTH_UNIT()SI_UNIT(.MILLI.,.METRE.));
#136=SURFACE_SIDE_STYLE('',(#182));
#137=EDGE_LOOP('',(#183,#184,#185,#186,#187,#188));
#138=AXIS2_PLACEMENT_3D('',#189,#190,#191);
#139=SURFACE_SIDE_STYLE('',(#192));
#140=EDGE_LOOP('',(#193,#194,#195,#196));
#141=AXIS2_PLACEMENT_3D('',#197,#198,#199);
#142=SURFACE_SIDE_STYLE('',(#200));
#143=EDGE_LOOP('',(#201,#202,#203,#204));
#144=AXIS2_PLACEMENT_3D('',#205,#206,#207);
#145=SURFACE_SIDE_STYLE('',(#208));
#146=EDGE_LOOP('',(#209,#210,#211,#212));
#147=AXIS2_PLACEMENT_3D('',#213,#214,#215);
#148=SURFACE_SIDE_STYLE('',(#216));
#149=EDGE_LOOP('',(#217,#218,#219,#220));
#150=AXIS2_PLACEMENT_3D('',#221,#222,#223);
#151=SURFACE_SIDE_STYLE('',(#224));
#152=EDGE_LOOP('',(#225,#226,#227,#228,#229));
#153=AXIS2_PLACEMENT_3D('',#230,#231,#232);
#154=SURFACE_SIDE_STYLE('',(#233));
#155=EDGE_LOOP('',(#234,#235,#236,#237,#238));
#156=AXIS2_PLACEMENT_3D('',#239,#240,#241);
#157=SURFACE_SIDE_STYLE('',(#242));
#158=EDGE_LOOP('',(#243,#244,#245,#246,#247));
#159=AXIS2_PLACEMENT_3D('',#248,#249,#250);
#160=SURFACE_SIDE_STYLE('',(#251));
#161=EDGE_LOOP('',(#252,#253,#254,#255));
#162=AXIS2_PLACEMENT_3D('',#256,#257,#258);
#163=SURFACE_SIDE_STYLE('',(#259));
#164=EDGE_LOOP('',(#260,#261));
#165=EDGE_LOOP('',(#262,#263));
#166=AXIS2_PLACEMENT_3D('',#264,#265,#266);
#167=SURFACE_SIDE_STYLE('',(#267));
#168=EDGE_LOOP('',(#268,#269,#270,#271));
#169=AXIS2_PLACEMENT_3D('',#272,#273,#274);
#170=SURFACE_SIDE_STYLE('',(#275));
#171=EDGE_LOOP('',(#276,#277));
#172=EDGE_LOOP('',(#278,#279));
#173=AXIS2_PLACEMENT_3D('',#280,#281,#282);
#174=SURFACE_SIDE_STYLE('',(#283));
#175=EDGE_LOOP('',(#284,#285,#286,#287));
#176=AXIS2_PLACEMENT_3D('',#288,#289,#290);
#177=SURFACE_SIDE_STYLE('',(#291));
#178=EDGE_LOOP('',(#292,#293,#294,#295,#296));
#179=AXIS2_PLACEMENT_3D('',#297,#298,#299);
#180=SURFACE_SIDE_STYLE('',(#300));
#182=SURFACE_STYLE_FILL_AREA(#301);
#183=ORIENTED_EDGE('',*,*,#302,.F.);
#184=ORIENTED_EDGE('',*,*,#303,.F.);
#185=ORIENTED_EDGE('',*,*,#304,.F.);
#186=ORIENTED_EDGE('',*,*,#305,.F.);
#187=ORIENTED_EDGE('',*,*,#306,.F.);
#188=ORIENTED_EDGE('',*,*,#307,.F.);
#189=CARTESIAN_POINT('',(-188.0,-6.09735475378101E-014,50.3744481771));
#190=DIRECTION('',(0.0,1.0,0.0));
#191=DIRECTION('',(-1.0,0.0,0.0));
#192=SURFACE_STYLE_FILL_AREA(#308);
#193=ORIENTED_EDGE('',*,*,#309,.F.);
#194=ORIENTED_EDGE('',*,*,#310,.T.);
#195=ORIENTED_EDGE('',*,*,#311,.F.);
#196=ORIENTED_EDGE('',*,*,#312,.T.);
#197=CARTESIAN_POINT('',(-188.0,1.61818621916689E-014,50.3744481771));
#198=DIRECTION('',(0.0,1.0,0.0));
#199=DIRECTION('',(-1.0,0.0,0.0));
#200=SURFACE_STYLE_FILL_AREA(#313);
#201=ORIENTED_EDGE('',*,*,#314,.F.);
#202=ORIENTED_EDGE('',*,*,#315,.F.);
#203=ORIENTED_EDGE('',*,*,#316,.F.);
#204=ORIENTED_EDGE('',*,*,#317,.F.);
#205=CARTESIAN_POINT('',(-68.8436120448631,0.0,-119.240633836907));
#206=DIRECTION('',(0.499999999993264,0.0,0.866025403788328));
#207=DIRECTION('',(0.866025403788328,0.0,-0.499999999993264));
#208=SURFACE_STYLE_FILL_AREA(#318);
#209=ORIENTED_EDGE('',*,*,#319,.F.);
#210=ORIENTED_EDGE('',*,*,#320,.F.);
#211=ORIENTED_EDGE('',*,*,#321,.F.);
#212=ORIENTED_EDGE('',*,*,#322,.F.);
#213=CARTESIAN_POINT('',(0.0,0.0,137.68722408855));
#214=DIRECTION('',(0.0,0.0,1.0));
#215=DIRECTION('',(1.0,0.0,0.0));
#216=SURFACE_STYLE_FILL_AREA(#323);
#217=ORIENTED_EDGE('',*,*,#324,.F.);
#218=ORIENTED_EDGE('',*,*,#325,.F.);
#219=ORIENTED_EDGE('',*,*,#326,.F.);
#220=ORIENTED_EDGE('',*,*,#327,.T.);
#221=CARTESIAN_POINT('',(0.0,0.0,137.68722408855));
#222=DIRECTION('',(0.0,0.0,1.0));
#223=DIRECTION('',(1.0,0.0,0.0));
#224=SURFACE_STYLE_FILL_AREA(#328);
#225=ORIENTED_EDGE('',*,*,#329,.F.);
#226=ORIENTED_EDGE('',*,*,#330,.T.);
#227=ORIENTED_EDGE('',*,*,#331,.T.);
#228=ORIENTED_EDGE('',*,*,#332,.F.);
#229=ORIENTED_EDGE('',*,*,#333,.F.);
#230=CARTESIAN_POINT('',(-68.8436120448631,0.0,-119.240633836907));
#231=DIRECTION('',(0.499999999993264,0.0,0.866025403788328));
#232=DIRECTION('',(0.866025403788328,0.0,-0.499999999993264));
#233=SURFACE_STYLE_FILL_AREA(#334);
#234=ORIENTED_EDGE('',*,*,#329,.T.);
#235=ORIENTED_EDGE('',*,*,#335,.F.);
#236=ORIENTED_EDGE('',*,*,#332,.T.);
#237=ORIENTED_EDGE('',*,*,#304,.T.);
#238=ORIENTED_EDGE('',*,*,#303,.T.);
#239=CARTESIAN_POINT('',(-68.8436120448631,0.0,-119.240633836907));
#240=DIRECTION('',(0.499999999993264,0.0,0.866025403788328));
#241=DIRECTION('',(0.866025403788328,0.0,-0.499999999993264));
#242=SURFACE_STYLE_FILL_AREA(#336);
#243=ORIENTED_EDGE('',*,*,#324,.T.);
#244=ORIENTED_EDGE('',*,*,#307,.T.);
#245=ORIENTED_EDGE('',*,*,#306,.T.);
#246=ORIENTED_EDGE('',*,*,#326,.T.);
#247=ORIENTED_EDGE('',*,*,#337,.F.);
#248=CARTESIAN_POINT('',(0.0,0.0,137.68722408855));
#249=DIRECTION('',(0.0,0.0,1.0));
#250=DIRECTION('',(1.0,0.0,0.0));
#251=SURFACE_STYLE_FILL_AREA(#338);
#252=ORIENTED_EDGE('',*,*,#309,.T.);
#253=ORIENTED_EDGE('',*,*,#317,.T.);
#254=ORIENTED_EDGE('',*,*,#311,.T.);
#255=ORIENTED_EDGE('',*,*,#320,.T.);
#256=CARTESIAN_POINT('',(-188.0,1.61818621916689E-014,50.3744481771));
#257=DIRECTION('',(0.0,1.0,0.0));
#258=DIRECTION('',(-1.0,0.0,0.0));
#259=SURFACE_STYLE_FILL_AREA(#339);
#260=ORIENTED_EDGE('',*,*,#337,.T.);
#261=ORIENTED_EDGE('',*,*,#325,.T.);
#262=ORIENTED_EDGE('',*,*,#322,.T.);
#263=ORIENTED_EDGE('',*,*,#340,.T.);
#264=CARTESIAN_POINT('',(0.0,0.0,225.0));
#265=DIRECTION('',(0.0,0.0,1.0));
#266=DIRECTION('',(1.0,0.0,0.0));
#267=SURFACE_STYLE_FILL_AREA(#341);
#268=ORIENTED_EDGE('',*,*,#319,.T.);
#269=ORIENTED_EDGE('',*,*,#340,.F.);
#270=ORIENTED_EDGE('',*,*,#321,.T.);
#271=ORIENTED_EDGE('',*,*,#310,.F.);
#272=CARTESIAN_POINT('',(0.0,0.0,137.68722408855));
#273=DIRECTION('',(0.0,0.0,1.0));
#274=DIRECTION('',(1.0,0.0,0.0));
#275=SURFACE_STYLE_FILL_AREA(#342);
#276=ORIENTED_EDGE('',*,*,#333,.T.);
#277=ORIENTED_EDGE('',*,*,#335,.T.);
#278=ORIENTED_EDGE('',*,*,#343,.T.);
#279=ORIENTED_EDGE('',*,*,#315,.T.);
#280=CARTESIAN_POINT('',(-112.5,0.0,-194.8557158515));
#281=DIRECTION('',(-0.499999999993264,0.0,-0.866025403788328));
#282=DIRECTION('',(-0.866025403788328,0.0,0.499999999993264));
#283=SURFACE_STYLE_FILL_AREA(#344);
#284=ORIENTED_EDGE('',*,*,#314,.T.);
#285=ORIENTED_EDGE('',*,*,#312,.F.);
#286=ORIENTED_EDGE('',*,*,#316,.T.);
#287=ORIENTED_EDGE('',*,*,#343,.F.);
#288=CARTESIAN_POINT('',(-68.8436120448631,0.0,-119.240633836907));
#289=DIRECTION('',(0.499999999993264,0.0,0.866025403788328));
#290=DIRECTION('',(0.866025403788328,0.0,-0.499999999993264));
#291=SURFACE_STYLE_FILL_AREA(#345);
#292=ORIENTED_EDGE('',*,*,#302,.T.);
#293=ORIENTED_EDGE('',*,*,#327,.F.);
#294=ORIENTED_EDGE('',*,*,#305,.T.);
#295=ORIENTED_EDGE('',*,*,#331,.F.);
#296=ORIENTED_EDGE('',*,*,#330,.F.);
#297=CARTESIAN_POINT('',(-188.0,-6.09735475378101E-014,50.3744481771));
#298=DIRECTION('',(0.0,1.0,0.0));
#299=DIRECTION('',(-1.0,0.0,0.0));
#300=SURFACE_STYLE_FILL_AREA(#346);
#301=FILL_AREA_STYLE('',(#347));
#302=EDGE_CURVE('',#348,#349,#350,.T.);
#303=EDGE_CURVE('',#351,#348,#352,.T.);
#304=EDGE_CURVE('',#353,#351,#354,.T.);
#305=EDGE_CURVE('',#355,#353,#356,.T.);
#306=EDGE_CURVE('',#357,#355,#358,.T.);
#307=EDGE_CURVE('',#349,#357,#359,.T.);
#308=FILL_AREA_STYLE('',(#360));
#309=EDGE_CURVE('',#361,#362,#363,.T.);
#310=EDGE_CURVE('',#361,#364,#365,.T.);
#311=EDGE_CURVE('',#366,#364,#367,.T.);
#312=EDGE_CURVE('',#366,#362,#368,.T.);
#313=FILL_AREA_STYLE('',(#369));
#314=EDGE_CURVE('',#370,#362,#371,.T.);
#315=EDGE_CURVE('',#372,#370,#373,.T.);
#316=EDGE_CURVE('',#366,#372,#374,.T.);
#317=EDGE_CURVE('',#362,#366,#375,.T.);
#318=FILL_AREA_STYLE('',(#376));
#319=EDGE_CURVE('',#361,#377,#378,.T.);
#320=EDGE_CURVE('',#364,#361,#379,.T.);
#321=EDGE_CURVE('',#380,#364,#381,.T.);
#322=EDGE_CURVE('',#377,#380,#382,.T.);
#323=FILL_AREA_STYLE('',(#383));
#324=EDGE_CURVE('',#384,#349,#385,.T.);
#325=EDGE_CURVE('',#386,#384,#387,.T.);
#326=EDGE_CURVE('',#355,#386,#388,.T.);
#327=EDGE_CURVE('',#355,#349,#389,.T.);
#328=FILL_AREA_STYLE('',(#390));
#329=EDGE_CURVE('',#348,#391,#392,.T.);
#330=EDGE_CURVE('',#348,#393,#394,.T.);
#331=EDGE_CURVE('',#393,#353,#395,.T.);
#332=EDGE_CURVE('',#396,#353,#397,.T.);
#333=EDGE_CURVE('',#391,#396,#398,.T.);
#334=FILL_AREA_STYLE('',(#399));
#335=EDGE_CURVE('',#396,#391,#400,.T.);
#336=FILL_AREA_STYLE('',(#401));
#337=EDGE_CURVE('',#384,#386,#402,.T.);
#338=FILL_AREA_STYLE('',(#403));
#339=FILL_AREA_STYLE('',(#404));
#340=EDGE_CURVE('',#380,#377,#405,.T.);
#341=FILL_AREA_STYLE('',(#406));
#342=FILL_AREA_STYLE('',(#407));
#343=EDGE_CURVE('',#370,#372,#408,.T.);
#344=FILL_AREA_STYLE('',(#409));
#345=FILL_AREA_STYLE('',(#410));
#346=FILL_AREA_STYLE('',(#411));
#347=FILL_AREA_STYLE_COLOUR('',#412);
#348=VERTEX_POINT('',#413);
#349=VERTEX_POINT('',#414);
#350=CIRCLE('',#415,239.1);
#351=VERTEX_POINT('',#416);
#352=CIRCLE('',#417,51.1);
#353=VERTEX_POINT('',#418);
#354=CIRCLE('',#419,51.1);
#355=VERTEX_POINT('',#420);
#356=CIRCLE('',#421,136.9);
#357=VERTEX_POINT('',#422);
#358=CIRCLE('',#423,51.1);
#359=CIRCLE('',#424,51.1);
#360=FILL_AREA_STYLE_COLOUR('',#425);
#361=VERTEX_POINT('',#426);
#362=VERTEX_POINT('',#427);
#363=CIRCLE('',#428,250.5);
#364=VERTEX_POINT('',#429);
#365=CIRCLE('',#430,62.5);
#366=VERTEX_POINT('',#431);
#367=CIRCLE('',#432,125.5);
#368=CIRCLE('',#433,62.5);
#369=FILL_AREA_STYLE_COLOUR('',#434);
#370=VERTEX_POINT('',#435);
#371=LINE('',#436,#437);
#372=VERTEX_POINT('',#438);
#373=CIRCLE('',#439,62.5);
#374=LINE('',#440,#441);
#375=CIRCLE('',#442,62.5);
#376=FILL_AREA_STYLE_COLOUR('',#443);
#377=VERTEX_POINT('',#444);
#378=LINE('',#445,#446);
#379=CIRCLE('',#447,62.5);
#380=VERTEX_POINT('',#448);
#381=LINE('',#449,#450);
#382=CIRCLE('',#451,62.5);
#383=FILL_AREA_STYLE_COLOUR('',#452);
#384=VERTEX_POINT('',#453);
#385=LINE('',#454,#455);
#386=VERTEX_POINT('',#456);
#387=CIRCLE('',#457,51.1);
#388=LINE('',#458,#459);
#389=CIRCLE('',#460,51.1);
#390=FILL_AREA_STYLE_COLOUR('',#461);
#391=VERTEX_POINT('',#462);
#392=LINE('',#463,#464);
#393=VERTEX_POINT('',#465);
#394=CIRCLE('',#466,51.1);
#395=CIRCLE('',#467,51.1);
#396=VERTEX_POINT('',#468);
#397=LINE('',#469,#470);
#398=CIRCLE('',#471,51.1);
#399=FILL_AREA_STYLE_COLOUR('',#472);
#400=CIRCLE('',#473,51.1);
#401=FILL_AREA_STYLE_COLOUR('',#474);
#402=CIRCLE('',#475,51.1);
#403=FILL_AREA_STYLE_COLOUR('',#476);
#404=FILL_AREA_STYLE_COLOUR('',#477);
#405=CIRCLE('',#478,62.5);
#406=FILL_AREA_STYLE_COLOUR('',#479);
#407=FILL_AREA_STYLE_COLOUR('',#480);
#408=CIRCLE('',#481,62.5);
#409=FILL_AREA_STYLE_COLOUR('',#482);
#410=FILL_AREA_STYLE_COLOUR('',#483);
#411=FILL_AREA_STYLE_COLOUR('',#484);
#412=COLOUR_RGB('',0.24705882370472,0.24705882370472,0.24705882370472);
#413=CARTESIAN_POINT('',(19.0666740438573,0.0,-69.1755518219693));
#414=CARTESIAN_POINT('',(51.1,-6.25773846803235E-015,50.3744481771));
#415=AXIS2_PLACEMENT_3D('',#485,#486,#487);
#416=CARTESIAN_POINT('',(-25.187224088949,-51.1000000000001,-43.6255518209672));
#417=AXIS2_PLACEMENT_3D('',#488,#489,#490);
#418=CARTESIAN_POINT('',(-69.4411222191365,-1.28204878083953E-013,-18.0755518180956));
#419=AXIS2_PLACEMENT_3D('',#491,#492,#493);
#420=CARTESIAN_POINT('',(-51.1,6.25773846803235E-015,50.3744481771));
#421=AXIS2_PLACEMENT_3D('',#494,#495,#496);
#422=CARTESIAN_POINT('',(3.12886923401617E-015,-51.1000000000001,50.3744481771));
#423=AXIS2_PLACEMENT_3D('',#497,#498,#499);
#424=AXIS2_PLACEMENT_3D('',#500,#501,#502);
#425=COLOUR_RGB('',0.24705882370472,0.24705882370472,0.24705882370472);
#426=CARTESIAN_POINT('',(62.5,0.0,50.3744481771));
#427=CARTESIAN_POINT('',(28.9393636530774,-7.65378971155312E-015,-74.8755518141089));
#428=AXIS2_PLACEMENT_3D('',#503,#504,#505);
#429=CARTESIAN_POINT('',(-62.5,7.65378971138986E-015,50.3744481771));
#430=AXIS2_PLACEMENT_3D('',#506,#507,#508);
#431=CARTESIAN_POINT('',(-79.3138118225101,2.47172251230401E-014,-12.3755518184957));
#432=AXIS2_PLACEMENT_3D('',#509,#510,#511);
#433=AXIS2_PLACEMENT_3D('',#512,#513,#514);
#434=COLOUR_RGB('',0.24705882370472,0.24705882370472,0.24705882370472);
#435=CARTESIAN_POINT('',(-58.3734122632295,0.0,-226.105715851079));
#436=CARTESIAN_POINT('',(-14.7170243080927,-7.65378971138986E-015,-150.490633836486));
#437=VECTOR('',#515,1.0);
#438=CARTESIAN_POINT('',(-166.62658773677,7.65378971138985E-015,-163.605715851921));
#439=AXIS2_PLACEMENT_3D('',#516,#517,#518);
#440=CARTESIAN_POINT('',(-122.970199781634,7.65378971138985E-015,-87.9906338373278));
#441=VECTOR('',#519,1.0);
#442=AXIS2_PLACEMENT_3D('',#520,#521,#522);
#443=COLOUR_RGB('',0.24705882370472,0.24705882370472,0.24705882370472);
#444=CARTESIAN_POINT('',(62.5,0.0,225.0));
#445=CARTESIAN_POINT('',(62.5,-7.65378971138986E-015,137.68722408855));
#446=VECTOR('',#523,1.0);
#447=AXIS2_PLACEMENT_3D('',#524,#525,#526);
#448=CARTESIAN_POINT('',(-62.5,7.65378971138986E-015,225.0));
#449=CARTESIAN_POINT('',(-62.5,7.65378971138986E-015,137.68722408855));
#450=VECTOR('',#527,1.0);
#451=AXIS2_PLACEMENT_3D('',#528,#529,#530);
#452=COLOUR_RGB('',0.24705882370472,0.24705882370472,0.24705882370472);
#453=CARTESIAN_POINT('',(51.1,0.0,225.0));
#454=CARTESIAN_POINT('',(51.1,-6.25773846803235E-015,137.68722408855));
#455=VECTOR('',#531,1.0);
#456=CARTESIAN_POINT('',(-51.1,6.25773846803235E-015,225.0));
#457=AXIS2_PLACEMENT_3D('',#532,#533,#534);
#458=CARTESIAN_POINT('',(-51.1,6.25773846803235E-015,137.68722408855));
#459=VECTOR('',#535,1.0);
#460=AXIS2_PLACEMENT_3D('',#536,#537,#538);
#461=COLOUR_RGB('',0.24705882370472,0.24705882370472,0.24705882370472);
#462=CARTESIAN_POINT('',(-68.2461018664165,0.0,-220.405715851156));
#463=CARTESIAN_POINT('',(-24.5897139112796,-6.25773846803235E-015,-144.790633836563));
#464=VECTOR('',#539,1.0);
#465=CARTESIAN_POINT('',(-25.187224088949,51.0999999999999,-43.6255518209672));
#466=AXIS2_PLACEMENT_3D('',#540,#541,#542);
#467=AXIS2_PLACEMENT_3D('',#543,#544,#545);
#468=CARTESIAN_POINT('',(-156.753898133584,6.25773846803235E-015,-169.305715851844));
#469=CARTESIAN_POINT('',(-113.097510178447,6.25773846803235E-015,-93.690633837251));
#470=VECTOR('',#546,1.0);
#471=AXIS2_PLACEMENT_3D('',#547,#548,#549);
#472=COLOUR_RGB('',0.24705882370472,0.24705882370472,0.24705882370472);
#473=AXIS2_PLACEMENT_3D('',#550,#551,#552);
#474=COLOUR_RGB('',0.24705882370472,0.24705882370472,0.24705882370472);
#475=AXIS2_PLACEMENT_3D('',#553,#554,#555);
#476=COLOUR_RGB('',0.24705882370472,0.24705882370472,0.24705882370472);
#477=COLOUR_RGB('',0.24705882370472,0.24705882370472,0.24705882370472);
#478=AXIS2_PLACEMENT_3D('',#556,#557,#558);
#479=COLOUR_RGB('',0.24705882370472,0.24705882370472,0.24705882370472);
#480=COLOUR_RGB('',0.24705882370472,0.24705882370472,0.24705882370472);
#481=AXIS2_PLACEMENT_3D('',#559,#560,#561);
#482=COLOUR_RGB('',0.24705882370472,0.24705882370472,0.24705882370472);
#483=COLOUR_RGB('',0.24705882370472,0.24705882370472,0.24705882370472);
#484=COLOUR_RGB('',0.24705882370472,0.24705882370472,0.24705882370472);
#485=CARTESIAN_POINT('',(-188.0,-5.47158090697777E-014,50.3744481771));
#486=DIRECTION('',(0.0,-1.0,0.0));
#487=DIRECTION('',(0.0,0.0,1.0));
#488=CARTESIAN_POINT('',(-25.1872240847163,-6.09735475378101E-014,-43.6255518163023));
#489=DIRECTION('',(0.499999999964906,0.0,0.8660254038047));
#490=DIRECTION('',(0.8660254038047,0.0,-0.499999999964906));
#491=CARTESIAN_POINT('',(-25.1872240847163,-6.09735475378101E-014,-43.6255518163023));
#492=DIRECTION('',(0.499999999964906,0.0,0.8660254038047));
#493=DIRECTION('',(0.8660254038047,0.0,-0.499999999964906));
#494=CARTESIAN_POINT('',(-188.0,-5.47158090697777E-014,50.3744481771));
#495=DIRECTION('',(0.0,1.0,0.0));
#496=DIRECTION('',(0.0,0.0,1.0));
#497=CARTESIAN_POINT('',(0.0,-6.09735475378101E-014,50.3744481771));
#498=DIRECTION('',(0.0,0.0,-1.0));
#499=DIRECTION('',(1.0,0.0,0.0));
#500=CARTESIAN_POINT('',(0.0,-6.09735475378101E-014,50.3744481771));
#501=DIRECTION('',(0.0,0.0,-1.0));
#502=DIRECTION('',(1.0,0.0,0.0));
#503=CARTESIAN_POINT('',(-188.0,2.38356519030588E-014,50.3744481771));
#504=DIRECTION('',(0.0,1.0,0.0));
#505=DIRECTION('',(0.0,0.0,1.0));
#506=CARTESIAN_POINT('',(0.0,1.61818621916689E-014,50.3744481771));
#507=DIRECTION('',(0.0,0.0,-1.0));
#508=DIRECTION('',(1.0,-2.58909795066703E-016,0.0));
#509=CARTESIAN_POINT('',(-188.0,2.38356519030588E-014,50.3744481771));
#510=DIRECTION('',(0.0,-1.0,0.0));
#511=DIRECTION('',(0.0,0.0,1.0));
#512=CARTESIAN_POINT('',(-25.1872240847163,1.61818621916689E-014,-43.6255518163023));
#513=DIRECTION('',(0.499999999964906,0.0,0.8660254038047));
#514=DIRECTION('',(0.8660254038047,-2.58909795066703E-016,-0.499999999964906));
#515=DIRECTION('',(0.499999999993264,0.0,0.866025403788328));
#516=CARTESIAN_POINT('',(-112.5,0.0,-194.8557158515));
#517=DIRECTION('',(-0.499999999993264,0.0,-0.866025403788328));
#518=DIRECTION('',(0.866025403788328,0.0,-0.499999999993264));
#519=DIRECTION('',(-0.499999999993264,-0.0,-0.866025403788328));
#520=CARTESIAN_POINT('',(-25.1872240847163,1.61818621916689E-014,-43.6255518163023));
#521=DIRECTION('',(0.499999999964906,0.0,0.8660254038047));
#522=DIRECTION('',(0.8660254038047,-2.58909795066703E-016,-0.499999999964906));
#523=DIRECTION('',(0.0,0.0,1.0));
#524=CARTESIAN_POINT('',(0.0,1.61818621916689E-014,50.3744481771));
#525=DIRECTION('',(0.0,0.0,-1.0));
#526=DIRECTION('',(1.0,-2.58909795066703E-016,0.0));
#527=DIRECTION('',(-0.0,-0.0,-1.0));
#528=CARTESIAN_POINT('',(0.0,0.0,225.0));
#529=DIRECTION('',(0.0,0.0,1.0));
#530=DIRECTION('',(1.0,0.0,0.0));
#531=DIRECTION('',(-0.0,0.0,-1.0));
#532=CARTESIAN_POINT('',(0.0,0.0,225.0));
#533=DIRECTION('',(0.0,0.0,-1.0));
#534=DIRECTION('',(1.0,0.0,0.0));
#535=DIRECTION('',(-0.0,0.0,1.0));
#536=CARTESIAN_POINT('',(0.0,-6.09735475378101E-014,50.3744481771));
#537=DIRECTION('',(0.0,0.0,-1.0));
#538=DIRECTION('',(1.0,0.0,0.0));
#539=DIRECTION('',(-0.499999999993264,0.0,-0.866025403788328));
#540=CARTESIAN_POINT('',(-25.1872240847163,-6.09735475378101E-014,-43.6255518163023));
#541=DIRECTION('',(0.499999999964906,0.0,0.8660254038047));
#542=DIRECTION('',(0.8660254038047,0.0,-0.499999999964906));
#543=CARTESIAN_POINT('',(-25.1872240847163,-6.09735475378101E-014,-43.6255518163023));
#544=DIRECTION('',(0.499999999964906,0.0,0.8660254038047));
#545=DIRECTION('',(0.8660254038047,0.0,-0.499999999964906));
#546=DIRECTION('',(0.499999999993264,0.0,0.866025403788328));
#547=CARTESIAN_POINT('',(-112.5,0.0,-194.8557158515));
#548=DIRECTION('',(0.499999999993264,-0.0,0.866025403788328));
#549=DIRECTION('',(0.866025403788328,0.0,-0.499999999993264));
#550=CARTESIAN_POINT('',(-112.5,0.0,-194.8557158515));
#551=DIRECTION('',(0.499999999993264,-0.0,0.866025403788328));
#552=DIRECTION('',(0.866025403788328,0.0,-0.499999999993264));
#553=CARTESIAN_POINT('',(0.0,0.0,225.0));
#554=DIRECTION('',(0.0,0.0,-1.0));
#555=DIRECTION('',(1.0,0.0,0.0));
#556=CARTESIAN_POINT('',(0.0,0.0,225.0));
#557=DIRECTION('',(0.0,0.0,1.0));
#558=DIRECTION('',(1.0,0.0,0.0));
#559=CARTESIAN_POINT('',(-112.5,0.0,-194.8557158515));
#560=DIRECTION('',(-0.499999999993264,0.0,-0.866025403788328));
#561=DIRECTION('',(0.866025403788328,0.0,-0.499999999993264));
ENDSEC;
END-ISO-10303-21;
